Billie Eilish — Bad Guy, finger tab (TXT)


Показать табулатуру Billie Eilish — Bad Guy »

Standard Tune, capo 3th fret

(0) - optional note
h - hammer on
p - pull off
X - thumb slap
● - guitar deck percussion

Recommended to use thumbpick

All percussion is optional,
only a fingerstyle profy can play it,
but it greatly improves the sound of the song

-----------------------------------------------------------
-----------------------------------------------------------
-------------------------------0---------------------------
----------------------------------2--0---------------------
-----------------------------------------------------------
--0----0--3--0----0----0----0--3--0------------------------

-----------------------------------------------------------
-----------------------------------------------------------
----------0--------------------0---------------------------
--2----2-----2----2----2----2-----2--0---------------------
-----------------------------------------------------------
--0----0--3--0----0----0----0--3--0------------------------

-----------------------------------------------------------
-------------------------------1---------------------------
----------------------------------2------------------------
-------------------------------------0---------------------
--0----0--3--0----0----0----0--3--0------------------------
-------------------------------------3---------------------

-----------------------------------------------------------
----------4--0---------------------------------------------
-----------------------------------------------------------
----------1------------------------------------------------
--2----2-----2----2----2----2------------------------------
---------------------------------X-------------------------

-----------------------------------------------------------
-----------------------------------------------------------
--0---0---------0---0---0---0---------0h2------------------
--2---2---------2---2---2---2---------2--------------------
-----------------------------------------------------------
--0-------0--3--0---0---0---0--3--0---0--------------------

-----------------------------------------------------------
-----------------------------------------------------------
--0---0---------0---0---0---0---------0h2------------------
--2---2---------2---2---2---2---------2--------------------
-----------------------------------------------------------
--0-------0--3--0---0---0---0--3--0---0--------------------

-----------------------------------------------------------
--1---1---------1---1---1---1---------1h3------------------
--2---2---------2---2---2---2---------2--------------------
-----------------------------------------------------------
--0-------0--3--0---0---0---0--3--0---0--------------------
-----------------------------------------------------------

-----------------------------------------------------------
--0---0---------0---0------0-------------------------------
--2---2---------2---2---2--2-------------------------------
-------------1---------------------------------------------
--2-------2-----2---2------2-------------------------------
-------------------------------X---------------------------

-----------------------------------------------------------
-----------------------------------------------------------
--0---0---------0---0---0---0---------0h2------------------
--2---2---------2---2---2---2---------2--------------------
--●---●------●----●---●---●----●------●--------------------
--0-------0--3--0---0---0---0--3--0---0--------------------

-----------------------------------------------------------
-----------------------------------------------------------
--0---0---------0---0---0---0---------0h2------------------
--2---2---------2---2---2---2---------2--------------------
--●---●------●----●---●---●----●------●--------------------
--0-------0--3--0---0---0---0--3--0---0--------------------

-----------------------------------------------------------
--1---1---------1---1---1---1---------1h3------------------
--2---2---------2---2---2---2---------2--------------------
--●---●------●----●---●---●----●------●--------------------
--0-------0--3--0---0---0---0--3--0---0--------------------
-----------------------------------------------------------

-----------------------------------------------------------
--0---0---------0---0------0-------------------------------
--2---2------●--2---2---2--2-------------------------------
--●---●------1----●---●----●-------------------------------
--2-------2-----2---2------2-------------------------------
-------------------------------X---------------------------

(Play 3 times)
-----------------[----------------]------------------------
-----------------[----------------]------------------------
--0--0h2--2------[-0h2--2p0--2----]------------------------
-------------2---[--------------2-]------------------------
----------●--●---[-●----●----●--●-]------------------------
----------0------[-0---------0----]-------X----------------

-----------------------------------------------------------
-------1---1--------------1---1--------------0---0---------
--0h2----------2p0--2p0-----------2p0--2p0-----------------
-------●---●---●----●-----●---●---●----●-----●---●---------
-------0-------0----------0-------0----------2-------------
-----------------------------------------------------------

-----------------------------------------------------------
------------0h1p0------------------------------------------
--2p0--2p0-------------2p0---------------------------------
--●----●----●---●------------4----2------------------------
--2---------2----------------------------------------------
--------------------X--------0----------7-----------------

(Play 4 times) (Play 2 times)
---[-----------------------]---[----0-----------0------]---
---[----0-----------0------]---[-------------4-----4p1-]---
---[-------------3-----3p0-]---[-2--------2------------]---
---[-2--------2------------]---[-●-----------●---------]---
---[-●-----------●---------]---[-0---------------------]---
---[-0-----X-----------X---]---[-------X-----------X---]---

down-down-up-down-up-down
-----2-----------------------------------------------------
--------------4--------------------------------------------
--4--------4-----4-----2--2--------------------------------
--●-----------●--------------------------------------------
--2--------------------2--2----|--Palm mute 6 string--|----
--------X-----------X----------(0)--(0)-(0)-(0)-(0)-(0)----

(Play 2 times)
---[-------------------------------]-----------------------
---[-------------------------------]-----------------------
---[-0---0----0---0---0---0------2-]-----------------------
---[--------------------------2----]-----------------------
---[-------------------------------]-----------------------
---[-0-----------------------------]-----------------------

-----------------------------------------------------------
--1---1----1---1---1---1------3----------------------------
---------------------------2-------------------------------
-----------------------------------------------------------
--0--------------------------------------------------------
-----------------------------------------------------------

-----------------------------------------------------------
-----------------------------------------------------------
--4---4----4---4---2--0------------------------------------
-----------------------------------------------------------
--2-----------------------|--Palm mute 6 string--|---------
--------------------------(0)--(0)-(0)-(0)-(0)-(0)---------

-----------------------------------------------------------
-----------------------------------------------------------
--0---0---------0---0---0---0---------0h2------------------
--2---2---------2---2---2---2---------2--------------------
--●---●------●----●---●---●----●------●--------------------
--0-------0--3--0---0---0---0--3--0---0--------------------

-----------------------------------------------------------
-----------------------------------------------------------
--0---0---------0---0---0---0---------0h2------------------
--2---2---------2---2---2---2---------2--------------------
--●---●------●----●---●---●----●------●--------------------
--0-------0--3--0---0---0---0--3--0---0--------------------

-----------------------------------------------------------
--1---1---------1---1---1---1---------1h3------------------
--2---2---------2---2---2---2---------2--------------------
--●---●------●----●---●---●----●------●--------------------
--0-------0--3--0---0---0---0--3--0---0--------------------
-----------------------------------------------------------

-----------------------------------------------------------
--0---0---------0---0------0-------------------------------
--2---2------●--2---2---2--2-------------------------------
--●---●------1----●---●----●-------------------------------
--2-------2-----2---2------2-------------------------------
-------------------------------X---------------------------

(Play 3 times)
-----------------[----------------]------------------------
-----------------[----------------]------------------------
--0--0h2--2------[-0h2--2p0--2----]------------------------
-------------2---[--------------2-]------------------------
----------●--●---[-●----●----●--●-]------------------------
----------0------[-0---------0----]-------0----------------

-----------------------------------------------------------
-------1---1--------------1---1--------------0---0---------
--0h2----------2p0--2p0-----------2p0--2p0-----------------
-------●---●---●----●-----●---●---●----●-----●---●---------
-------0-------0----------0-------0----------2-------------
-----------------------------------------------------------

-----------------------------------------------------------
------------0h1p0------------------------------------------
--2p0--2p0-------------2p0---------------------------------
--●----●----●---●------------4----2------------------------
--2---------2----------------------------------------------
--------------------X--------0----------7-----------------

(Play 4 times) (Play 2 times)
---[-----------------------]---[----0-----------0------]---
---[----0-----------0------]---[-------------4-----4p1-]---
---[-------------3-----3p0-]---[-2--------2------------]---
---[-2--------2------------]---[-●-----------●---------]---
---[-●-----------●---------]---[-0---------------------]---
---[-0-----X-----------X---]---[-------X-----------X---]---

-----2-----------------------------------------------------
--------------4--------------------------------------------
--4--------4-----4-----2---2---2---------------------------
--●-----------●--------------------------------------------
--2--------------------2---2---2---------------------------
--------X-----------X---------------0h2h3------------------

(Play 4 times) (Play 2 times)
---[-----------------------]---[----0-----------0------]---
---[----0-----------0------]---[-------------4-----4p1-]---
---[-------------3-----3p0-]---[-2--------2------------]---
---[-2--------2------------]---[-●-----------●---------]---
---[-●-----------●---------]---[-0---------------------]---
---[-0-----X-----------X---]---[-------X-----------X---]---

-----2-----------------------------------------------------
--------------4--------------------------------------------
--4--------4-----4-----2---2---2-----------●---------------
--●-----------●----------------------------2---------------
--2--------------------2---2---2-----------2---------------
--------X-----------X---------------0h2h3--0---------------

Скачать табулатуру: сек.